Studio Version:

Most Helpful Video:

Album: BTCS

 

The Stone













Tuning: Standard

E-A-D-G-B-E


Difficulty: ***

Advanced


Additional Tabs:


Helpful Videos:

> Dave and Tim '14

Intro

E:-------------------------
B:-------------------------
G:-----2-------------------
D:---------3---5-5--2-3-2--
A:-5-----------------------
E:-------------------------
   4   1   2   4 4  1 2 1


Verse

E:----------------------------------------------------------------------
B:----------------------------------------------------------------------
G:-----2--------------------3-------------------2-----------------------
D:---------3---5-5--2-3-2---x---5-5--2-3-2---------------3--0--2--------
A:-5------------------------1----------------5-----3--1-----------3--0--
E:--------------------------3-------------------------------------------
   4   1   2   4 4  1 2 1       4 4   1 2 1  4  1  2  1  4     2  3


Chorus/Jam

Only slide into the first chord when starting chorus

E:--------------------
B:--------------------
G:--5----5----5----5-- <---4
D:-/3----2----3----2-- <---1
A:------------5----3-- <---3on5(2on3)
E:--------------------
   (1)


Transition

At end of transition slide from 8 on A-string down

E:-------------------
B:-------------------
G:-------------------
D:-------------------
A:----7-----5-----8--
E:-5-----8-----6-----
   1  3  4  1  2  4


End of Jam Variation

Played after entire band jam when it slows down

E:------------------------------------------------------------
B:------------------------------------------------------------
G:------------------------------------5---5---5----5---5---5--
D:---10---10----10----10---10---10----------------------------
A:-8----8-----8-----7----7----7-----5---5---5----3---3---3----
E:------------------------------------------------------------
   1 4  1 4   1 4   1 4  1 4  1 4   2 3 2 3 2 3  1 4 1 4 1 4