Studio Version:

Most Useful Video:

Album: Remember Two Things

 

The Song That Jane Likes













Tuning: Standard

E-A-D-G-B-E


Difficulty: **

Intermediate


Additional Tabs:



Useful Videos:

> DMB '13

E:-2-----0---1---3-----0--
B:-3-----1---1---0-----1--
G:-2-----0---2---0-----2--
D:-0-----2---3---0-----2--
A:-------3---3---2-----0--
E:-----------1---3--------


Verse

E:-3----3----0----1----3/5--
B:-0----1----1----1----1/3--
G:-0----0----2----2----0----
D:-0----2----2----3----2/4--
A:-2----3----0----3----3/5--
E:-3--------------1---------


Transition

The first time, Dave sometimes throws in the slide from the verse at the end of this

E:-0------0----1--
B:-0------1----1--
G:-1------2----2--
D:-2------2----3--
A:-2------0----3--
E:-------------1--


Ending

Starts with an Am strummed

Chord w/ X under it is here Dave stops to repeat(with band)

See Finger Chart for this section

E:-------0---3/5--5--3--2--0--0-----------3--
B:-------1---1/3--3--3--3--3--1-----------0--
G:-------0---0----0--x--x--x--0-----------0--
D:-------2---2/4--4--4--4--4--2-----------0--
A:-0--2--3---3/5--5--5--5--5--3--2--0-----2--
E:-------------------------------------2--3--
      2                 X        2     2