Studio Version:

Most Helpful Video:

Album: Away From the World

 

The Riff













Main Riff:
E|--------------------------------------------
B|--------------------------------------------
G|--------------------------------------------
D|--------0h3------0h2-0----------------------
A|--0h3h5------0h3-----------0-2-3-3h5-3-2----
E|-------------------------3---------------3--


"Please don't leave me"/"You stay with me":
    F   C
E|----------
B|------1---
G|--2---0---
D|--3---2---
A|--3---3---
E|--1-------


E|----------------------------------------------------------------
B|----------------------------------------------------------------
G|---------------------------------------(2)----------------------
D|--------0h3-------0-2p0-------------0h2-2--------0--------------
A|--0h3h5-----3--2h3------3-2---0h2-3-----0--0h2h3---3p2p(0)------
E|-----------------------------3-----------------------------1-3--

"You stay with me":
   Bb   F
E|----------
B|--3-------
G|--3---2---
D|--3---3---
A|--1---3---
E|------1---

                                                                     
E|--------------------------------------------------------------------
B|--------------------------------------------------------------------
G|--5-4------7-7-6-6------9-8---------------6-5-----------8-7---------
D|--5-5-5-4--7-7-7-7--7-6-9-9--9-9-8-8--4-3-6-6--6-6-5-5--8-8-8-7--3--
A|--3-2-5-5--5-5-4-4--7-7-7-6--9-9-9-9--4-4-4-3--6-6-6-6--6-5-8-8--3--
E|------3-2-----------5-4------7-7-6-6--2-1------4-4-3-3------6-5--1--


Tim plays a G chord at the end of breakdown(optional):

E|-----
B|-----
G|--4--
D|--5--
A|--5--
E|--3--

Tuning: Standard

E-A-D-G-B-E


Difficulty: ***

Advanced


Additional Tabs:



Helpful Videos: