Most Helpful Video:

Originally by: Neil Young

 

The Needle and the Damage Done













Tuning: Standard

E-A-D-G-B-E


Difficulty: ***

Advanced


Additional Tabs:



Helpful Videos:

Intro/In-between verses:
E|---2-0------0---------0--------0----
B|---3-3----3---3-----3---3----3---3--
G|---2-2----0---0-----0---0----0---0--
D|-0-0-0---(2)-(2)--------------------
A|--------3---------2--------1--------
E|------------------------------------


E|---------------------------
B|---------------------------
G|--0-----0-2-3-2-0----2--1--
D|--2-0h2-----------2--2--2--
A|--3------------------2--2--
E|---------------------0--0--


Verse:
E|---2-0------0---------0--------0----
B|---3-3----3---3-----3---3----3---3--
G|---2-2----0---0-----0---0----0---0--
D|-0-0-0---(2)-(2)--------------------
A|--------3---------2--------1--------
E|------------------------------------


E|-----------------------------
B|--1--1-----------------------
G|--0--2--2--1-----------------
D|--2--3--2--2------0-2/4\2-0--
A|--3-----2--2--0h2------------
E|--------0--0-----------------


Ending:
E|---2-0------0---------0----0---
B|---3-3----3---3-----3---3--3---
G|---2-2----0---0-----0---0--0---
D|-0-0-0---(2)-(2)---------------
A|--------3---------2--------1---
E|-------------------------------