Tuning: Standard

E-A-D-G-B-E


Difficulty: ***

Advanced


Additional Tabs:



Helpful Videos:

Most Helpful Video:

Originally by: Daniel Lanois

 

The Maker













Intro
This part is played while strumming the whole time to get the slide sounds
E:------------------------
B:------------------------
G:------------------------
D:----2/7--6/7--6/7------- <---2
A:----3/8--7/8--7/8------- <---3
E:-1------------------6\--
   1                  (1) 


Verse
Play this once through and then the intro twice for one go around
E:-------------
B:-------------
G:-------------
D:-7--------7-- <---1
A:-8--------x-- <---2
E:-10-------8-- <---4on10(2on8)


Chorus
This leads straight back to the intro
E:-----------------------------------------
B:-----------------------------------------
G:-----------------------------------------
D:-7------7-------2/7--6/7--7---7-------7-- <---2
A:-8------x-------3/8--7/8--8---8-------x-- <---3
E:-6------8----1------------0---6-------8-- <---1on6(3on8)
               1

Jam/Ending
Play the chords and then listen and you will hear them
E:-----------------------
B:-----------------------
G:-----------------------
D:-3----------6---5---3--
A:-x----------x---x---x--
E:-1----------4---3---1--


Intro/Fill/Outro

E:----
B:----
G:-2--
D:-3--
A:-3--
E:-1--


Verse

E:-1------1----------
B:-3------3---1------
G:-2------2---0---2--
D:------------2---3--
A:------------3---3--
E:----------------1--


Chorus

E:----------------------------------
B:-3-----1-----------3-----3-----1--
G:-3-----0-----2-----3-----3-----0--
D:-3-----2-----3-----3-----3-----2--
A:-1-----3-----3-----1-----1-----3--
E:-------------1--------------------