Studio Version:

Most Helpful Video:

Album: BTCS

 

The Last Stop













Tuning: Down Half Step

D#-G#-C#-F#-A#-D#


Difficulty: ***

Advanced


Additional Tabs:


Helpful Videos:

> DMB '10

Intro

This is played sometimes and often times with variation, play around as you like

D#:-------------------------------------------------------------------
A#:-------------------------------------------------------------------
F#:-------------------------------------------------------------------
C#:---------9--10\12--13--12--12\10--9--10----------------10----------
G#:-10--11----------------------------------11--10h11p10------11--10--
D#:-------------------------------------------------------------------
    2   3   1   (2)   3   2    (2)   1  2   3    2__3__2  2   3   2


Verse

D#:----
A#:----
F#:----
C#:-5--
G#:-x--
D#-:3--


Fill #1

D#:-----------------

A#:-----------------
F#:-----------------
C#:-5--6-6/9--6--5--
G#:-x--x-x----x--x--
D#:-3--4-4/7--4--3--


Fill #2

D#:-------------------------------------
A#:-------------------------------------
F#:-------------------------------------
C#:-5--6-6/9--10--9--6--5--6-6/9--6--5--
G#:-x--x-x----x---x--x--x--x-x----x--x--
D#:-3--4-4/7--8---7--4--3--4-4/7--4--3--


"This is the Last Stop"

D#:--------------------
A#:--------------------
F#:--------------------
C#:-13--13--12--10--9--
G#:-x---x---x---x---x--
D#:-11--11--10--8---7--


"Your so righteous..."

D#:----      D#:----
A#:----      A#:----
F#:----      F#:----
C#:-3--  or  C#:-3--
G#:-x--      G#:-3--
D#:-1--      D#:-1--


"Go ahead believe that you..."

D#:--------------------------------------------------
A#:--------------------------------------------------
F#:--------------------------------------------------
C#:-5--6-6/9--10--9--10--12--13--12--10--9---6/9--5--
G#:-x--x-x----x---x--x---x---x---x---x---x---x----x--
D#:-3--4-4/7--8---7--8---10--11--10--8---7---4/7--3--


"Heeeeeey, your always..."

D#:-----------------
A#:-----------------
F#:-12-----7-----5-- <---2
C#:-x------x-----x--
G#:-x------x-----x--
D#:-11-----6-----5-- <---1


Outro

D#:---3----3----------3--
A#:---3----3----------3--
F#:---x----x-------------
C#:---x----x-------------
G#:-3-3--2-2----------2--
D#:--------------2--3-3--
    2    1       1  2