Most Helpful Video:

 

The Idea of You













Tuning: Standard

E-A-D-G-B-E

Capo: 10th Fret


Difficulty: ***

Advanced


Additional Tabs:



Helpful Videos:

Dave uses his little Villete 12-string guitar for this song. Use a capo on the 10th fret to produce the same high sound on a normal guitar. 


Intro/Verses:

E----------------------------------------------
B-------------------------------3--------------
G-------------------------------0------7-------
D-------------------------------4------5-------
A----------------------------5--5---3--3-------
E--0--2---3/---5/----7-7-----------------------


Transition to Chorus:

E-----------------------
B-----------0----0------
G-------4---2----0------
D-------2---0----0------
A-------3---------------
E-----------------------


Chorus:

E----------------------------------------------------------------------------
B---------0---0---------0--0---0---0---------0---0--0------------0---0---0---
G---------4---2---------2--4---2---0---------4---2--0------------4---2---0---
D---------0---0---------0--0---0---0---------0---0--0------(2)---0---0---0---
A--(2)------------------------------------2-----------------3----------------
E---3---------------2--------------------------------------------------------


Bridge:

E-------------
B-----3-------
G-----0-------
D-----4-------
A-----5-------
E-------------


Ending:

E--------------------------------------
B--------------------------------3-----
G--------------------------------0-----
D--------------------------------4-----
A----3--2--0---------------------5-----
E----------------3---2---0-------------