Studio Version:

Most Helpful Video:

Album: UTTAD

 

The Best of What's Around













Tuning: Standard

E-A-D-G-B-E


Difficulty: ***

Advanced


Additional Tabs:


Helpful Videos:

> a.DMB '12

> b.DMB '12

Verse

E:-----------------1----------------------------1----5-5-5--
B:-----------------1-------------1-1-1----------1----3-3-3--
G:------5---5------2-------------0-0-0-------5--2----x-x-x--
D:-/7-7---7---7----3------7--7---2-2-2--/7-7----3--4-4-4-4--
A:-----------------3------9--9---3-3-3----------3--5-5-5-5--
E:--------------8--1--\10-10-10-----------------1-----------
    3 3 1 3 1 3 4     (4)                3 3 1  


Chorus

E:-------------4---5---------------
B:-----5---2---5---3---2-----------
G:-6---6---2---6---x---2---4----6--
D:-7---6---4---6---4---2---x----7--
A:-7---4-------4---5-------2----7--
E:-5-------------------------4--5--
                             3


Transition

E:------------
B:-(1)--------
G:--2---------
D:--2---------
A:------------
E:----3-2-1/--
      3 1 1


"Turns out..."

E:-----4----------
B:-----5---3------
G:-6---4---4---4--
D:-7---6---4---5--
A:-7-------2---5--
E:-5-----------3--
       X


Fill for X Above

The chord with the X under it can be played like this when solo to give it a fuller sound

E:----
B:-5--
G:-6--
D:-6--
A:-4--
E:----