Most Helpful Video:

Originally by: John Denver

 

Take Me to Tomorrow













Tuning: Standard

E-A-D-G-B-E


Difficulty: *

Beginner


Additional Tabs:



Helpful Videos:

Intro:
E|-------------
B|-------------
G|---1--2-1----
D|---2--2-2----
A|---2--2-2----
E|---0--0-0----
 
Verse:
E|--------------------------------------------------------------
B|---------------------------------0----0--0-0------------------
G|---1----1--2-1----1----1--2-1----2----2--1-2----1----1--2-1---
D|---2----2--2-2----2----2--2-2----2----2--2-2----2----2--2-2---
A|---2----2--2-2----2----2--2-2----0----0--0-0----2----2--2-2---
E|---0----0--0-0----0----0--0-0-------------------0----0--0-0---
 
Lead into chorus:
E|-----------------------------
B|-----------------------------
G|----------1--2-1---1--2-1----
D|--9---7---2--2-2---2--2-2----
A|--9---7---2--2-2---2--2-2----
E|--7---5---0--0-0---0--0-0----
 
Chorus (“Take me to tomorrow”):
E|--------------------------
B|--10--10--10--------------
G|---9---9---9---9--6--8----
D|---7---7---7---6--7--9----
A|---0---9---0---7--7--9----
E|---------------9--5--7----