Studio Version:

Most Helpful Video:

Album: Lillywhite Sessions

 

Sweet Up and Down













Tuning: Drop-D

D-A-D-G-B-E

Comment: Dave usually plays on a 12-string guitar 


Difficulty: ***

Advanced


Additional Tabs:



Helpful Videos:

> DMB '10

Intro

E:-----------
B:-----------
G:-4------4-- <---4
D:-1------2-- <---1
A:-2------0-- <---2
D:-----------


Verse

E:-----------------------
B:-----------------------
G:----------2---4-----4-- <---4
D:-2--4/5-------1-----2-- <---1
A:-2--4/5-------2-----0-- <---2
D:-2--4/5----------------
   1  (3)   1


"Sweet Up and Dooooown"

E:--------
B:--------
G:--------
D:-4---5-- <---1on4
A:-5---5-- <---3on5
D:-4---5-- <---1on4
       3
               

Jam

E:--------------------------
B:--------------------------
G:-4--6--7---9----11-----9--
D:-2--4--5---7----9------7--
A:-2--4--5---7----9------7--
D:-2--4--5---7----9------7--