Most Helpful Video:

 

Sugar Will













Tuning: Standard

E-A-D-G-B-E


Difficulty: ***

Advanced


Additional Tabs:



Helpful Videos:

Intro(/Interlude):

e-----------------|
b-----------------|
g-5---9---5-9---5-|
d-7-9-7-9-7-7-9-7-|
a-----------------|
E-----------------|

Repeat till you get bored with it


Verse:

e-----------------|-----------------|
b-----------------|-----------------|
g-2---5---2-5---2-|-5---9---5-9---5-|
d-3-5-3-5-3-3-5-3-|-7-9-7-9-7-7-9-7-|
a-----------------|-----------------|
E-----------------|-----------------|


e-------------------------|----------------------|
b-------------------------|----------------------|
g-9-----12----9--12----9--|-7----10----7-10----7-|
d-10-12-10-12-10-10-12-10-|-8-10-8--10-8-8--10-8-|
a-------------------------|----------------------|
E-------------------------|----------------------|

Repeat till the pre-chorus


Pre(/Post)-Chorus:

e----------------|----------------|
b----------------|----------------|
g-2---5----------|-4---7----------|
d-3-5-3-/4---4---|-5-7-5-/6---6---|
a-------/5-7-5---|-------/7-9-7---|
E----------------|----------------|


Chorus (in 7/8):

e---------------|---------------|
b---------------|---------------|
g---------------|---------------|
d-3---7---3-7---|-2---5---2-5---|
a-5-7-5-7-5-5-7-|-3-5-3-5-3-3-5-|
E---------------|---------------|


e---------------|-------------------|
b---------------|-------------------|
g-4---7---4-7---|-------------------|
d-5-7-5-7-5-5-7-|-3---7---3-7---(3)-|
a---------------|-5-7-5-7-5-5-7-(5)-|
E---------------|-------------------|
                                 *
*last time through the chorus, the final measure switches to 4/4.. add this 1/8 note 


(Pre/)Post-Chorus:

e----------------|----------------|
b----------------|----------------|
g-2---5----------|-4---7----------|
d-3-5-3-/4---4---|-5-7-5-/6---6---|
a-------/5-7-5---|-------/7-9-7---|
E----------------|----------------|


(Intro/)Interlude:

e-----------------|
b-----------------|
g-5---9---5-9---5-|
d-7-9-7-9-7-7-9-7-|
a-----------------|
E-----------------|

etc. etc. etc.


Notes: The fingering for this song is pretty simple, and VERY repetitive. Use your middle finger for the root notes and your index finger for the 3rds, and use your pinky for 2nds and 5ths. For example,

e---------------|              e---------------|
b---------------|              b---------------|
g---------------|              g---------------|
d-2---5---2-5---| is fingered: d-i---p---i-p---|
a-3-5-3-5-3-3-5-|              a-m-p-m-p-m-m-p-|
E---------------|              E---------------|

It's a real work-out for your pinky, and a very tough stretch during the minor "chords" (the intro/second measure of the verse, and the first/fourth measure of the chorus). But practice makes perfect, and it's a lot of fun to play once you get it down.


Jam

e---------------------------------------------------------
B---1--0--1------1--0--1-----1--0--1--3--1--0--1----------
G---2--2--2------2--2--2-----2--2--2--2--2--2--2----------
D---2--2--2------2--2--2-----2--2--2--2--2--2--2----------
A---------------------------------------------------------
E---------------------------------------------------------