Originally by: Sixto Rodriguez

 

Sugar Man













Tuning: Standard

E-A-D-G-B-E


Difficulty: *

Beginner


Additional Tabs:



Helpful Videos:

Most Helpful Video:

Intro:
    Am
E|-------
B|--1----
G|--2----
D|--2----
A|--0----
E|-------


Verse:
    Am  *   Dm E7 Dm E7 Am
E|----------1-----1----------
B|--1--(1)--3-----3-----1----
G|--2--(2)--2--1--2--1--2----
D|--2--(2)--0--0--0--0--2----
A|--0--(0)-----2-----2--0----
E|------4------0-----0-------
        *
*Alternate chord:
E|-----
B|--1--
G|--1--
D|--2--
A|--0--
E|-----


Chorus:
    C  Am Dm G   C  Am F  Bb   E
E|--------1--3----------------------
B|--1--1--3--0---1--1-----3----0----
G|--0--2--2--0---0--2--2--3----2----
D|--2--2--0--0---2--2--3--3----2----
A|--3--0-----2---3--0--3--1----1----
E|-----------3---------1-------0----


Bridge/Jam/Outro:
    Am  *   Dm E
E|----------1-------
B|--1--(1)--3--0----
G|--2--(2)--2--2----
D|--2--(2)--0--2----
A|--0--(0)-----1----
E|------4------0----
        *