Most Helpful Video:

Originally by: Elvis Presley

 

Stuck on You













Tuning: Standard

E-A-D-G-B-E


Difficulty: **

Intermediate


Additional Tabs:



Helpful Videos:

Intro
E:------------------------
B:------------------------
G:------------------------
E:------------------------
D:---5--(5)---------------
A:---x-------3-2-3-2-3-2--
E:-3-3--------------------
   1     4   2 1 2 1 2 1


Verse
The 2nd and 5th chord can be played as the Intro w/ fill after
E:---------------------------------------------------
B:---------------------------------------------------
G:---------------------------------------------------
D:---5--------5--------5--------5--------5--------5--
A:---x--------x------3-3------3-3--------x--------x--
E:-3-3------3-3--------x--------x------3-3------3-3--
   1        1        1        1        1        1


"I'm Gonna Stick like Glue..."
E:----------------------------------
B:----------------------------------
G:-5-----------------------5-------- <---3on5
D:-4------5------5---------4-----3-- <---1on4
A:-5------3------x---------5-----3-- <---2on5
E:--------x------3---------------1--


"Hide In the Kitchen..."
E:----------------------------------------------------------
B:----------------------------------------------------------
G:-------------------------------------------------------5-- <---3on5
D:---5--------5--------5--------5--------5--------5------4-- <---1on4
A:-3-3------3-3--------x--------x------3-3------3-3------5-- <---2on5
E:---x--------x------3-3------3-3--------x--------x---------
   1        1        1        1        1        1