Most Helpful Video:

 

Stream













Tuning: Drop-D

D-A-D-G-B-E


Difficulty: ****

Tim Pro


Additional Tabs:



Helpful Videos:

Intro
Mess around, have some fun
E:---0--0--0-0-0-0--------0----------------0--
B:---0--0--0-0-0-0-------0---7777777777----0--
G:---5--5--5-5-5-5------5------------------5--
D:---5--5--5-5-5-5-----5-------------------5--
A:---0-----0-0-0------0--------------------0--
D:-0-0-------0-------0---------------------0--


E:----------------------0--------------------0--
B:----------------------0--------------------0--
G:----------------------5------4----5----7---5--
D:-----2----4----5------5---0h5--0h7--0h9----5--
A:--0h3--0h5--0h7-------0--------------------0--
D:------------------0-0-0------------------0-0--


Part 1
Play first part a couple times then when ending Part 1, play second part
E:----------------------0--------------------0--
B:----------------------0--------------------0--
G:----------------------5------4----5----7---5--
D:-----2----4----5------5---0-5--0-7--0-9----5--REPEAT
A:--0-3--0-5--0-5-------0--------------------0--
D:------------------0-0-0------------------0-0--


E:----------------------0--------------------0--

B:----------------------0--------------------0--
G:----------------------5------4----4----7---5--
D:-----2----4----5------5---0-5--0-6--0-9----5--
A:--0-3--0-5--0-7-------0--------------------0--
D:------------------0-0-0------------------0-0--


Part 2
The main riff, play this twice then go to the next section
E:---------------------------0---------------------------0--
B:---------------------------0---------------------------0--
G:---------------------------5---4-5-4-2-----------------5--
D:-4-5-4-2-------------------5-------------5-4-2--5-4-2--5--
A:-----------5-4-2--5-4-2----0---------------------------0--
D:-------------------------0-0---------------------------0--


E:---------------------------0--7-8-7-----------------------
B:---------------------------0--------10-8-7-5-7---8--8-10--
G:---------------------------5-------------------5--5---7---
D:--4-5-4-2------------------5------------------------------
A:------------5-4-2--5-4-2---0------------------------------
D:-------------------------0-0------------------------------


Part 3
play the first three cords twice for each part
E:-0-0-0-0---0-0--0-0---0-0-0-0-0-0-0-*7*-- 
B:-7-5-3-5/7-7-7--7-7----3-3---6-6--7-*7*--
G:-5-3-1-3/5-5-5--5-5--1-----3------5-*7*--
D:-0-0-0-0---0-0--0-0----------------------
A:-----------------------------------------
D:-----------------------------------------


Transition Part
E:-0-0-0-0---0-0--0-0---0-0-0-0-0-0-0-0-0-0-0-0-0-0-0-0-0-0-0
B:-7-5-3-5/7-7-7--7-7----3-3---6-6---7-7---7-7---7---7---7-7-
G:-5-3-1-3/5-5-5--5-5--1-----3-----5-----5-----5---5---5-----
D:-0-0-0-0---0-0--0-0----------------------------------------
A:-----------------------------------------------------------
D:-----------------------------------------------------------


Cocaine Fury
Very, very fast part
*sample for looping (DL-4)- L@LC
(mix up the speedy part and pause
to play the xxx570 picking)

E:------*0-0-0-0-------------------------
B:-----*7-7-7-7--------------------------
G:----*5-5-5-5-5-----7-/14-\13--11-------
D:-------------------x--0---0---0--------
A:-------------------5--12--11--9--------
D:-------------------0--0---0---0--------


E:--------------
B:--------------
G:-7-\5--\4-\2-/
D:-0--0---0--0--
A:-5--3---2--0--
D:-0--0---0--0--


E:-------------------
B:-------------------
G:-7-/14-\12-\11-/---
D:-0---0---0---0-----
A:-5--12--10---9-----
D:-0---0---0---0-----


COCAINE EXIT:
e:-0--0--0
B:-1--3--5
G:-0--0--0
D:-2--4--5
A:-0--0--0
D:-0--0--0


Part 4
Again, just mess a round and have fun
This section was tabbed by BRIAN L. COX


Big Improv Section

E:--------------------------------------
B:--------------------------------------
G:-4-5-4---4---5/7-0--------------------
D:--------------------5---0------0-5/7--
A:--------------------------------------
D:--------------------------------------


E:------------------------------------7-8-10-12-14-15--
B:------------------------------7-8-10-----------------
G:-----------------------4-5-7-9-----------------------
D:------------------4-5-7------------------------------
A:---------0-2-3-5-7-----------------------------------
D:--0-2-3-5--------------------------------------------


Here is one of the awesomely fast riffs that Tim throws in on L@LC.
E:---------------------------
B:----------------------8-6--
G:----------------------7-5--Repeat
D:----------------------0-0--
A:-------3p0-----5p0----0-0--
D:--0h3h5---0h5h7---5-0-----


E:-------------0-----------0-----------0-0/0-0--
B:-------------6-----------6-----------6-6/8-8--
G:-------------5-----------5-----------5-5/7-7--Repeat
D:-------------0-----------0-----------0-0/0-0--
A:-------3p0----------3p0---------3p0-----------
D:--0h3h5---0----0h3h5---0---0h3h5---0----------


Part 5
Repeat Part 1, part 2, and part 3, ending with the harmonic in part 3


Zepplin Melody
Here is a cool melody Tim has played at a couple solo shows that he uses right after the Cocaine Fury (Thanks to Mark Schmitz for the tab)
E:------------------------------------------------------------------------
B:------------------------------------------------------------------------
G:-2-2-2---2-2-2---3-3-3---3-3-3---4-4-4---4-4-4---5-5-5---5-5-5---7-7-7--
D:-0-0-0---0-0-0---0-0-0---0-0-0---0-0-0---0-0-0---0-0-0---0-0-0---0-0-0--
A:-5-5-5---5-5-5---5-5-5---5-5-5---5-5-5---5-5-5---5-5-5---5-5-5---5-5-5--
D:-0-0-0-0-0-0-0-0-0-0-0-0-0-0-0-0-0-0-0-0-0-0-0-0-0-0-0-0-0-0-0-0-0-0-0--


E:-10--10--8--8--5--5--3--3--1--1-------------
B:--------------------------------------------
G:-12--11--10-9--7--6--5--4--3--2-------------
D:--------------------------------------------
A:-----------------------------------0-3-2-0--
D:-----------------------------------0-3-2-0--


E:----------------------------------------------------------------
B:----------------------------------------------------------------
G:-2-2-2---2-2-2---3-3-3---3-3-3---5-5-5---5-5-5---7-7-7---7-7-7--
D:-0-0-0---0-0-0---0-0-0---0-0-0---0-0-0---0-0-0---0-0-0---0-0-0--
A:-5-5-5---5-5-5---5-5-5---5-5-5---5-5-5---5-5-5---5-5-5---5-5-5--
D:-0-0-0-0-0-0-0-0-0-0-0-0-0-0-0-0-0-0-0-0-0-0-0-0-0-0-0-0-0-0-0--


E:---4-----4--------------4------4---4---4--
B:-----5-----5p4------------5---------------
G:-------6-------4---4--------6----4---4----
D:-----------------4------------------------
A:-4--------------------4-------------------
D:------------------------------------------


E:---4-----4--------------4------4---4---4--
B:-----5-----5p4------------5---------------
G:-------6-------4---4--------6----4---4----
D:-----------------4------------------------
A:-4--------------------4-------------------
D:------------------------------------------


E:-4-----4----------------------------------
B:---5-----5p4------------------------------
G:-----6-------4---4---------------------8--
D:---------------4-------------9-9-11-11----
A:--------------------4--11-11--------------
D:------------------------------------------


E:-4-----4------------------------------------
B:---5-----5p4--------------------------------
G:-----6-------4---4--------------------------
D:---------------4-------------9-9-9p11-------
A:--------------------4--11-11----------9-11--
D:--------------------------------------------


E:-4-----4----------------------------------
B:---5-----5p4------------------------------
G:-----6-------4---4---------------------8--
D:---------------4-------------9-9-11-11----
A:--------------------4--11-11--------------
D:------------------------------------------


E:-4-----4------------------------------------
B:---5-----5p4--------------------------------
G:-----6-------4---4--------------------------
D:---------------4-------------9-9-9p11-------
A:--------------------4--11-11----------9-11--
D:--------------------------------------------


E:-4-----4------------------------------------
B:---5-----5p4--------------------------------
G:-----6-------4---4---------------------8-9--
D:---------------4-------------9-9-11-11------
A:--------------------4--11-11----------------
D:--------------------------------------------


Now it goes into something tricky, it was too tough to tab

E:--------------------------------------------------------------
B:--------------------------------------------------------------
G:-5/7-7-7-7--5/7-7-7-7--5/7-7-7--------------------------------
D:-x-x-x-x-x--x-x-x-x-x--x-x-x-x-5--3/5-5-5-5-3------------3-0--
A:-3/5-5-5-5--3/5-5-5-5--3/5-5-5-5--3/5-5-5-5-3--0-----3-0------
D:-x-x-x-x-x--x-x-x-x-x--x-x-x-x-5--3/5-5-5-5-3--0-3-5----------


E:--------------------------------------------------------------
B:--------------------------------------------------------------
G:-5/7-7-7-7--5/7-7-7-7--5/7-7-7--------------------------------
D:-x-x-x-x-x--x-x-x-x-x--x-x-x-x-5--3/5-5-5-5-3------------3-0--
A:-3/5-5-5-5--3/5-5-5-5--3/5-5-5-5--3/5-5-5-5-3--0-----3-0------
D:-x-x-x-x-x--x-x-x-x-x--x-x-x-x-5--3/5-5-5-5-3--0-3-5----------


E:-10--10--8--8--5--5--3--3--1--1-------------
B:--------------------------------------------
G:-12--11--10-9--7--6--5--4--3--2-------------
D:--------------------------------------------
A:-----------------------------------0-3-2-0--
D:-----------------------------------0-3-2-0--


L@LC ending
listen to the cd, it helps a lot
Repeat beginning and come here after Transition part
delay pedal in effect here:
E:--*7*--*7*--
B:--*7*--*7*--
G:------------
D:------------
A:------------
E:------------


E:------------------------------------------
B:--10--9--10--12--10--9--10----------------
G:------------------------------------------
D:------------------------------------------
A:---------------------------------------0--
E:---------------------------------------0--


E:--------------------------------------------------------------------
B:--10--9--10--12^--12^--12--12^-12^-10--9--10--9-----------9---9-----
G:-------------------------------------------------11--9--------------
D:----------------------------------------------------------7---7-----
A:-----------------------------------------------------------------0--
E:-----------------------------------------------------------------0--


E:------------------------------------------------------------
B:------------------------------------------------------------
G:----------------------------7-7-7---------6-7-7-7-6/7--7-7--
D:----------------------4-------------------------------------
A:--5-5-5-5-4-5-5-4-5-5-5-5-5-5-5-5-5-5-5-5-4-5-5-5-4/5--5-5--
E:--0-0-0-0-0-0-0---0-0-0-0-0-------0-0-0-0---0-0-0-0-0--0-0--


E:------------------------
B:------------------------
G:------------------------
D:------0--7--------0--7--
A:----0-----------0-------
E:--0-----------0---------


E:--------------------------------
B:--------------------------------
G:--7-7---5--4--5--7-7--9--11--9--
D:--------------------------------
A:--5-5---3--2--3--5-5--7--9---7--
E:--0-0---0--0--0--0-0--0--0---0--


E:-------------------------------------------------------------------------------
B:-------------------------------------------------------------------------------
G:--9/15-15-15-15-16-16-16-15-15-15-15-16-16-16-16-15-15-15-14-14-14-14-16-16-16-
D:------------------------------------------------------------------------------- you get the idea, strum 
A:--7/14-14-14-14-14-14-14-13-13-13-13-14-14-14-14-13-13-13-12-12-12-12-14-14-14- 
like a madman

E:--0-0--0--0--0--0--0--0--0--0--0--0--0--0--0--0--0--0--0--0--0--0--0--0--0--0--


E:--------------------------------------------------------------------------------------------
B:--------------------------------------------------------------------------------------------
G:--16-16-16-15-15-15-15-15-15-15-14-14-14-14-14-14-13-13-13-13-12-12-12-12-12-12-12--11--11--
D:--------------------------------------------------------------------------------------------
A:--14-14-14-13-13-13-13-13-13-13-12-12-12-12-12-12-11-11-11-11-10-10-10-10-10-10-10--9---9---
E:--0--0--0--0--0--0--0--0--0--0--0--0--0--0--0--0--0--0--0--0--0--0--0--0--0--0--0---0---0---