Tuning: Standard

E-A-D-G-B-E


Difficulty: ***

Advanced


Additional Tabs:


Helpful Videos:


Common Segue:

Most Helpful Video:

 

Still Water













Timmy's fills
--------|---------|------|--------------|-----------------|----------
--------|---------|-/7-7-|-3-3-3/5-5-5-3|-----------------|----------
--7-5p4-|-5-5-5p4-|------|--------------|-----------------|----------
--------|---------|------|--------------|-----------------|-4-4h5-4--
--------|---------|------|--------------|-3-3-3-3-3-3-5---|----------
--------|---------|------|--------------|-0-0-0-0-0-0-0-0-|----------

w/slide
~~~               (volume swell)
----------------------------
----------------------------
-----------------------7---- into 
DDTW
-4--/5----7----7------------
----------------------------
----------------------------