Tuning: Standard

E-A-D-G-B-E


Difficulty: ***

Advanced


Additional Tabs:



Helpful Videos:


Note: this is all piano live, no Dave at all.. so this tab can be played around with a lot.

Intro:

e-------------------|
b-------------------|
g-3h5-3-------------|
d-------3h5-3-3-----|
a-------------4--3--|
E----------------4--|

e-------------------|
b-------------------|
g-3h5-3-------------|
d-------3h5-3-3-----|
a-------------1-----|
E-------------------|


Verse:

e-----------------------|
b-----------------------|
g--------3h5-3----------|
d--3-----------3h5-3-3--|
a--4--3--------------1--|
E-----4-----------------|


"Troubles, they may come and go.."

e------------|-------------------|
b------------|-------------------|
g------------|-3h5-3-------------|
d-----3-5-6--|-------3h5-3-3-----|
a-5-6-----4--|-------------1-----|
E------------|-------------------|

e------------|-------------------|
b------------|-------------------|
g------------|-3h5-3-------------|
d-----3-5-6--|-------3h5-3-3-----|
a-5-6-----4--|-------------1-----|
E------------|-------------------|


"When the storm comes.."

e-----|-----|----|-----------|
b-----|-----|----|-----------|
g-----|-----|----|-----------|
d--4--|-----|----|-----------|
a--2--|--4--|-4--|-2-1-----1-|
E-----|--2--|-1--|-----2-4---|

e-----|-----|----|-----|
b-----|-----|----|-----|
g-----|-----|----|-----|
d--4--|-----|----|-----|
a--2--|--4--|-4--|--3--|
E-----|--2--|-1--|--4--|

Steady as We Go













Studio Version:

Album: Stand Up