Studio Version:

Most Useful Video:

Album: Some Devil

 

Stay or Leave













Tuning: Raised-B

B-E-A-D-F#-B

Comment: Can also play these tabs in standard tuning with capo on 7

Difficulty: ***

Advanced


Additional Tabs:


Useful Videos:

Intro/Verse

B:------------------------------------------------------
F#:---0-----0-------3-----1-----1------1------1------0--
D:----0-----0-------0-----0-----0------0------0------0--
A:----2-----0-------4-----2-----x------x------0------0--
E:----2-----2---3/5-5---3-3---2-2------2---0--0------x--
B:--0-0---3-3-----------------------3--3------3---2--2--
          3     (3)     3     2     3             2

B:---------------------------------
F#:---0-----0-------3-----1-----3--
D:----0-----0-------0-----0-----2--
A:----2-----0-------4-----2-----x--
E:----2-----2---3/5-5---3-3---2-2--
B:--0-0---3-3----------------------
          3     (3)     3     1


"Stay or Leave..."

B:--0-----0-----3-----2--
F#:-1-----1-----0-----3--
D:--2-----0-----0-----2--
A:--2-----2-----0-----0--
E:--0-----3-----2--------
B:--------------3--------


"So What to do..."

B:-----------------------------------------------------2----------------
F#:---3------3-----3------3------3----3----3------3----3------3------3--
D:----2------2-----2------2------2----2----2------2----2------2------2--
A:----x------x-----x------x------x----x----x------x----0------x------x--
E:--4-4----3-3-----x------x----4-4----4----x------x---------4-4----3-3--
B:---------------3-3----2-2---------0----3-3----2-2---------------------
    4      2     2      1      4         2      1           4      2


Lead Into "Remember we used to..."

B:------------------10-- <---4
F#:---0-----0-------8--- <---1
D:----0-----0-----------
A:----2-----0-----------
E:----2-----2---3/9-----
B:--0-0---3-3-----------
          3     (3)


If Playing w/ Capo, play as:
B:------------------3--
F#:---0-----0----------
D:----0-----0----------
A:----2-----0---3/5----
E:----2-----2----------
B:--0-0---3-3----------
          3     (3) 1

"Remember we used to..."

Think Gravedigger

B:----10-----0-----0--------
F#:----------1-----0-----3--
D:----9------2-----2-----2--
A:----x------2-----2-----x--
E:----10-----0-----x-----x--
B:--8-8----------3-3---2-2--
    1            4     2


If Playing w/ Capo, first chord played as:
E:-3--
B:-5--
G:-5--
D:-5--
A:-3--
E:----


"What day is this..."

He sings "What day is this" twice but you play this once through

B:--0---------2----------0----0----2--
F#:-1----1----3-----3----1----1----3--
D:--2----2----2-----2----2----2----2--
A:--2----2----0-----x----2----2----0--
E:--0----3--------4-4----0----3-------

B:------------------------------------