Studio Version:

Most Useful Video:

Album: Some Devil

 

Stay or Leave - Tim's Parts













Tuning: Standard

E-A-D-G-B-E


Difficulty: Tim n/a



Additional Tabs:


Useful Videos:

Verse:
E---2----5------------------------------
B---3----7-----10---8---2---2---3---3---
G---4----7-----9----7---3---3---2---2---
D---4----7---7/11---9---4---0---2---2---
A---2---/5--------------------------4---
E---------------------------------------

E---2----5---------------0---
B---3----7-----10---8----3---
G---4----7-----9----7----6---
D---4----7---7/11---9----4---
A---2---/5-------------------
E----------------------------

E----------10--
B-------8------
G---11---------
D--------------
A--------------
E--------------

Chorus:
Tim fiddles (picking low-high-mid-high, two step style) with this
E----------------------
B---8---12---10---10---
G---7---12---11---9----
D---9---12---12---11---
A----------------------
E----------------------

What to do ...
E|--(0)--(0)-------(0)--(0)--------(0)--(0)--(0)--(0)---|
B|---5----5----3----2----5--3--3----2----2----5----5----|
G|---4----4----2----2----4--4--2----2----2----4----4----|
D|---6----5----0----2----6--4--0----2----2----6----5----|
A|------------------4-------2-------4----0--------------|
E|------------------------------------------------------|

E|------10--/17--15--14--10--12--9------10--17--|--15--14--10--------|
B|--12------------------------------12----------|--------------10/7--|
G|----------------------------------------------|--------------------|
D|----------------------------------------------|--------------------|
A|----------------------------------------------|--------------------|
E|----------------------------------------------|--------------------|
End at the 1st bar when going to "Remember we used to ..."

Remember we used to ...
E|---3-----------0----------5----3-----0----3----5---|--(0)---0----3---4/5---|
B|---3-----------0-----0----5----0-----0----3----5---|---5----0----3---4/5---|
G|---4-----------0-----4----6----0-----0----4----6---|---4----0----4-----6---|
D|---5-----------2-----5----7----0-----2----5----7---|---6----2----5-----7---|
A|---5-----------2-----5----7----2-----2----5----0---|--------2----5-----0---|
E|---3--(5h7-5)--0----------5----3--2--0----3--------|--------0----3---------|
                                                       Last time