Tuning: Standard

E-A-D-G-B-E


Difficulty: ***

Advanced


Additional Tabs:



Helpful Videos:

Studio Version:

Most Helpful Video:

Album: Big Whiskey

 

Squirm













Intro
-----------------
-----------------
-----------------
---5-4-3-2-1-x-3-
---x-x-x-x-x-1-3-
-3-3-3-3-3-3-3-1-

Verse 1                   (Drum beats louder)
-----------------         ------------
-----------------         ------------
----------------- x2 then ------------
---5-4-3-2-1-x-3-         --3/5--3/5--
---x-x-x-x-x-1-3-         --3/5--3/5--
-3-3-3-3-3-3-3-1-         --1/3--1/3--

Verse 2
-----            -----                        ------------
-----            -----                        ------------
----- 3 measures ----- 1 measure  all x2 then ------------
--5--            --3--                        --3/5--3/5--
--5--            --3--                        --3/5--3/5--
--3--            --1--                        --1/3--1/3--

Chorus                (Part 2)
-------------         -----------------------
-----1-------         -----------------------
-----0------- x2 then ---------------------0-
--3--2--3/5--         ---------------0-2-3---
--3--3--3/5--         -----0---0-1-3---------
--1-----1/3--         -1-3---3---------------

If you want to incorporate the horn part into the chorus then play the first past as:
---------------
------21-------
------x0-------
--43--32--3/5--
--43--43--3/5--
--21------1/3--
But dave doesnt play it like this.

Jam
-----5--4-----------------------------
-----5--4-----------------------------
-----6--5--6------------------------0- x2
--3--7--6--7------------------0-2-3---
--3--7--6--7--------0---0-1-3---------
--1--------5----1-3---3---------------

Outro
-----           -----           ------------             -----
-----           -----           ------------             -----
----- 1 measure ----- 1 measure ------------ all x2 then ----- 1 measure then drum partx4

--5--           --3--           --3/5--3/5--             --3--
--5--           --3--           --3/5--3/5--             --3--
--3--           --1--           --1/3--1/3--             --1--