Tuning: Standard

E-A-D-G-B-E


Difficulty: *

Beginner


Additional Tabs:



Helpful Videos:

Studio Version:

Most Helpful Video:

 

Spotlight













"In the Spotlight..."
When leading into verse hit 2nd to last chord(Am) once and then jam on last chord(F)
E:--------------------------
B:-------6-----------1------
G:-7-----7-----4-----2---2--
D:-8-----7-----5-----2---3--
A:-8-----5-----5-----0---3--
E:-6-----------3---------1--


Verse
E:-------------
B:----------1--
G:-2--------2--
D:-3--------2--
A:-3--------0--
E:-1-----------


"Big City, Black City..."
When going into "Out in this world" don't his last 3
E:------3--------3---2----------------------------------
B:-1----0---1----0---3-----8----------------------------
G:-2----0---2----0---2-----x----------------------------
D:-2----0---2----0---0-----5-------------3---5----------
A:-0----2---0----2---------7-----5---3-----------5------
E:------3--------3-----------------------------------3--
                                 3   2   1   4   3   1


"Out in this world..."
E:---------------------
B:---------------------
G:-3----------7-----5--
D:-x----------x-----x--
A:-1----------5-----3--
E:-3----------6-----5--


End Jam/Outro
E:--------
B:-1------
G:-2---2--
D:-2---3--
A:-0---3--
E:-----1--