Studio Version:

Most Helpful Video:

Album: BTCS

 

Spoon













Tuning: Standard

E-A-D-G-B-E


Difficulty: ***

Advanced


Additional Tabs:


Helpful Videos:

> Dave and Tim '10

Intro/In Between Verses

E:---3-- <---4
B:---0--
G:---x--
D:---2-- <---3
A:---2-- <---2
E:-0-0--


Intro & In Between Verses Ends on

E:-------
B:-------
G:-------
D:-------
A:-3--2--
E:-------
   3  2


Verse

E:-------2-----0-----------0-----2-----3------3--
B:-------3-----1-----------1-----3-----3------3--
G:-------2-----0---1--1----2-----2-----0------0--
D:-5--7--0-----2---2--2----2-----0-----0------0-- <---1on5(4on7)
A:-7--7--------3---2--2----0-----------2------x-- <---3on7
E:-----------------0--4--------------3-3----2-2-- <---4on4
                                     2      1

"Holding..."

E:-0--
B:-1--
G:-0--
D:-2--
A:-3--
E:----


Outro

E:----------------------------------------
B:---8-------8-------8--------------------
G:---x-------x-------x--------------------
D:---5-------5-------5--------------------
A:---7-------7-------7-----3--2-----------
E:-0-------0-------0-------------3--2--0--
                           3  2  3  2


End

E:-------------3-- <---finger 4
B:-------------0--
G:-------------x--
D:-------------2-- <---finger 3
A:-3--2--------2-- <---finger 2
E:-------3--2--0--
   3  2  3  2