Studio Version:

Most Helpful Video:

Album: Big Whiskey

 

Spaceman













Tuning: Standard

E-A-D-G-B-E


Difficulty: ***

Advanced


Additional Tabs:



Helpful Videos:

Intro:

/=slide

e-----------------------------------------------|
B-----------------------------------------------|
G—2/6----------------------2/6------------------|
D-----------------------------------------------|
A-----------------------------------------------|
E-----------------------------------------------|


Verse:

Not much going on with the guitar in general so the ( ) are optional things to fill in the sound.

e----------------------------------------------------------|
B----------------------------------------------------------|
G—2/6--------6--7---4-----------2--0-----------------------|
D---------7-------------(5)--------------------------------|
A----------------------------------------------------------|
E-------5-----------(3)-----(3)----------------------------|


Bridge: (ah, ah, ah, yeah)


~=hold (HIT THEM ON THE UPBEATS)
    F        G        A
e------------------------------------------------------|
B------------------------------------------------------|
G---x-2-x-2--x-4-x-4--x-6-x-6--------------------------|
D---x-x-x-x--x-x-x-x--x-x-x-x--------------------------|
A---x-x-x-x--x-2-x-2--x-4-x-4--------------------------|
E---x-1-x-1--x-3-x-3--x-5-x-5--------------------------|


3x then it goes directly into chorus


Chorus:

    D  A  Bm G       D  A  C  A   D   A  Bm  G     F   G   A
e---2--------3-------2------------2----------3-----1---3---5----------|
B---3--2--3--3-------3--2--1--2---3---2--3---3-----1---3---5----------|
G---2--2--4--0-------2--2--0--2---2---2--4---0-----2---4---6----------|
D---0--2--4--0-------0--2--2--2---0---2--4---0-----3---5---7----------|
A------0--2--2----------0--3-(4)------0--2---2-----3---5---7----------|
E------------3-------------------------------3-----1---3---5----------|