Studio Version:

Most Helpful Video:

Album: Everyday

 

So Right













Tuning: B-E-A-D-F#-B


Difficulty: ***

Advanced



Additional Tabs:


Helpful Videos:

> DMB '12

Intro/Verse

Mutes can be played as 7th fret on E string to add some depth

B:----------------------------------------------------
F#:-7h8--8--7--8--7--8--------------------------------
D:--7h9--9--7--9--7--9--x-x-x-x----9h11--9h11--9h11/--
A:----------------------x-x-x-x----x-----x-----x------
E:----------------------x-x-x-x----7-----7-----7------
B:----------------------------------------------------
                                   (4)   (4)   (_4_)


"Your love is So Right..."

B:-(10)-----(15)----7------------------
F#:-8--------13-----8------------------
D:--x--------x------9------------------
A:--9--------14-----9-----9----10--12--
E:--10-------15-----7-----x----x---x---
B:------------------------7----8---10--

 or

B:------------------------------------
F#:-----------------------------------
D:---12------------9------------------
A:---12-----10-----9-----9----10--12--
E:---10-----10-----7-----9----10--x---
B:----------8------------7----8---10--


"I'm going crazy..."

Last chord is D chord past 12th fret

B:--0-----2-----2--14--
F#:-1-----3-----3--15--
D:--2-----4-----2--14--
A:--2-----4-----0------
E:--0-----2------------
B:---------------------


Outro

B:----------------------(10)-------------------------(15)--
F#:-7h8--8--7--8--7--8---8------7h8--8--7--8--7--8----13---
D:--7h9--9--7--9--7--9---x------7h9--9--7--9--7--9----x----
A:-----------------------9----------------------------14---
E:-----------------------10---------------------------15---
B:---------------------------------------------------------

 

B:----------------------7----------------------------------------
F#:-7h8--8--7--8--7--8--8-----7h8--8--7--8--7--8-----------------
D:--7h9--9--7--9--7--9--9-----7h9--9--7--9--7--9-----------------
A:----------------------9---------------------------9----10--12--
E:----------------------7---------------------------x----x---x---
B:--------------------------------------------------7----8---10--