Studio Version:

Most Helpful Video:

Album: UTTAD

 

So Much To Say













Tuning: Standard

E-A-D-G-B-E


Difficulty: ***

Advanced


Additional Tabs:


Helpful Videos:

> Dave and Tim '13


Common Segue:

> Anyone Seen the Bridge

Intro

Dave uses his 2nd finger mute during the last slide

E:------5-----------------
B:------5-----------------
G:------5---4/6-----------
D:---------------7--------
A:------------------------
E:-3/5--------------0-8\--
   (2)  4   (1)  2    3


Verse

Dave plays this once then the intro twice as one rotation of verse

E:------5-------------------------------
B:------5-------------------------------
G:------5---4/6-------------10----------
D:---------------7------5---7--------7--
A:--------------------3-----x------5----
E:-3/5--------------1------/10---3------
   (2)  4   (1)  2  1 2 4  (3)   1 2 4


Chorus

E:------------------------
B:------------------------
G:-6-----11-----4-----11--
D:-7-----12-----5-----12--
A:-7-----12-----5-----12--
E:-5-----10-----3-----10--


Ending

Played right as he sings "open" in "open up my head..." and before "Little Baby!"

E:----
B:----
G:----
D:-x--
A:-x--
E:-5--
   2