Studio Version:

Most Helpful Video:

Album: Away From the World

 

Snow Outside













Tuning: Standard

E-A-D-G-B-E


Difficulty: ***

Advanced


Additional Tabs:



Helpful Videos:

Intro/Bridge
E:--------------------------
B:--------------------------
G:-2h4p2p0---0---0-----0----
D:---------2---3---0-5---5--
A:--------------------------
E:--------------------------

Verse 
E:------------------------------
B:------------------------------
G:-2h4p2p0---0-------0-------0--
D:---------2-------0-------0---- 3x
A:---------------3-------2------
E:------------------------------

E:------------------------------ 
B:------------------------------
G:-2h4p2p0---0-------0-------0--
D:---------2-------0-------0----
A:------------------------------
E:---------------1-------3------

* When 3rd fret on low E string is played you can sub in G chord. 
* When 1st fret on low E string is played you can sub in F chord.
* When 2nd fret on A string is played you can sub in C chord (not for verse). 
Chords shown below - Dave does this many times throughout all parts of the song. 

           G~              F~              C~
E:-----  --3-    ------  ----    ------  ----
B:-----  --0-    ------  ----    ------  --1-
G:---0-  --0-    ----0-  --2-    ----0-  --0-
D:--0--OR--0-    ---0--OR--3-    ---2--OR--2-
A:-----  --2-    ------  --3-    --3---  --3-
E:-3---  --3-    --1---  --1-    ------  ----

Chorus
E:---------------------------------------------------
B:----------------3---1------------------------------
G:-2h4p2p0---0---0---0----2h4p2p0---0------0------0--
D:---------2----3---2-------------2------2------0----
A:-------------------------------------3-------------
E:--------------------------------------------3------
                                       C~     G~

E:-------------------------------------------------------- 
B:--------------------------------------------------------
G:-2h4p2p0---0------0------0---2h4p2p0---0------0------0--
D:---------2------0------0-------------2------0------0----
A:--------------------------------------------------------
E:--------------3------1--------------------1------3------
                G~     F~                   F~     G~
Outro 
E:----------------------------------------------------------------
B:----------------------------------------------------------------
G:-2h4p2p0---0--------0--------0---2h4p2p0---0--------0--------0--
D:---------2--------0--------0-------------2--------0--------0----
A:----------------------------------------------------------------
E:---------------3--------1----------------------1--------3-------