Most Helpful Video:

 

Sister













Tuning: Raised-A

B-F#-D-A-E-A

Comment: Can use capo on 7th fret in standard tuning, tune low B to A 


Difficulty: ***

Advanced


Additional Tabs:



Helpful Videos:

Verse

b:------------------------------------------------------------|
F#:--3-----------------3-----------------3-----------------3--|
D:---2---------0---0---0---------0---0---2---------0---0---2--|
A:---0--0h2--4---4-----2--0h2--4---4--------0h2--4---4--------|
E:---------------------3-----------------2--------------------|
A:---------------------------------------------------------2--|


Chorus

b:------------------------------------------|
F#:-----2--3--3--3------2--3--3--3-------2--|
D:------2--0--0--0------2--0--0--0-------2--|
A:------2--4--4--4------2--4--4--4-------2--|
E:--/5--4--5--2--0--/5--4--5--2--0--/5---4--|
A:--/5--------------/5--------------/5------| 


Ending by Purljam999

E---------------------
B---0-----0----(3)----
G---0-----0----(2)----
D---0-----0-----0-----
A---x-----x-----0-----
D---2----/4-----0-----