Dave plays this on electric guitar live.


Intro/Verse
e|----------------------------------------------
B|----------------------------------------------
G|----------------------------------------------
D|----------------------------------------------
A|--5h7-----------------------5-----------------  
E|-------0-0--3h5--5-5---5/7-----5\3---5--3--0-- 


e|----------------------------
B|----------------------------
G|----------------------------
D|----------------------------
A|--5h7----------------------- 
E|-------0-0--3h5--5-5---5/7--


Chorus
e|----------------------------
B|----------------------------
G|-----7---------------7------
D|--4--7--7--11-9---4--7--9---
A|--4--5--7--11-9---4--5--9---  
E|--2-----5--9--7---2-----7---


Studio Version:

 

She

Most Helpful Video:













Tuning: Standard

E-A-D-G-B-E


Difficulty: Medium



Additional Tabs:



Helpful Videos: