Studio Version:

Most Useful Video:

Album: Remember Two Things

 

Seek Up













Tuning: Standard

E-A-D-G-B-E


Difficulty: ***

Advanced


Additional Tabs:



Useful Videos:

> DMB '13

Intro/Jam

E:-----------------------------
B:-----------------------------
G:-----------------------------
D:-----10--10------12--10--10--
A:-12----------12--------------
E:-----------------------------
   3   1   1   3   4   1   1


"Fall, Back, Again"/"Forget about the reasons..."

E:-----------------------------------------
B:-----------------------------------------
G:----7---------7----------7-----------7---
D:-------------------------x-----------x---
A:----x---------x----------8-----------8---
E:-6--6------8--8------10--10------10--10--
   1         3         4           4


Verse

E:---------          E:-------
B:---------          B:-------
G:-----7---          G:----7--
D:-----x--- x4 then  D:------- x2 then first part x2
A:-----8---          A:----x--
E:-10--10--          E:-8--8--
   4                    2


Chorus

E:------2----3-------
B:-2----3----0----2--
G:-2----4----0----2--
D:-2----4----0----2--
A:-0----2----2----0--
E:-----------3-------


Transition from Chorus to Verse

E:-2---------------------
B:-3---------------------
G:-4---------------------
D:-4---------------------
A:-2---------------------
E:-------3---5---8---10--
         1   1   4   4


Jam(Yelling)

E:----------------
B:-8----------10--
G:-9----------10--
D:-10---------10--
A:-10---------8---
E:----------------

End of Jam/song

Hit each chord on only 1 downstroke

E:--------------------------------------
B:-8-----10-----8-----10----------------
G:-9-----10-----9-----10----------------
D:-10----10-----10----10-------10--12---
A:-10----8------10----8----12-----------
E:--------------------------------------
                           3   1   4