Studio Version:

Most Helpful Video:

Album: Crash

 

Say Goodbye













Tuning: Standard

E-A-D-G-B-E


Difficulty: ***

Advanced


Additional Tabs:


Helpful Videos:

> Dave and Tim '10

Intro

Played towards end of Drum Solo when Leroi solo's

E:----------------------
B:----------------------
G:-------9-----7--------
D:-7-----x-----x-----7--
A:-x-----7-----5-----x--
E:-5-----------------5--


Intro

E:----------------------------------------------------
B:-------------------9--------------------------------
G:---6--6/7--x-------9------11-------------6--6/7--6--
D:---x--x----x-------9------x--------------x--x----x--
A:---4--4/5--x---/11-11-----9--------------4--4/5--4--
E:-5-5----------------------10----10\---/5-5----------
   2             (3)              (2)  (2)


Alternate Intro

E:---------------------------------------------------------
B:-------------------9-------------------------------------
G:---6--6/7--x-------9------11-----9---7--------6--6/7--6--
D:---x--x----x-------9------x------x---x--------x--x----x--
A:---4--4/5--x---/11-11-----9------7---5--------4--4/5--4--
E:-5-5----------------------10-----9---7-----/5-5----------
   2             (3)                        (2)


Verse

E:--------------------------------------
B:-------------9------------------------
G:---6---------9------11-------------6--
D:---x---------9------x--------------x--
A:---4-----/11-11-----9--------------4--
E:-5-5----------------10----10\---/5-5--
   2       (3)              (2)  (2)


Chorus

E:-------------------
B:-----------2-------
G:-4----4----2----2--
D:-4----4----2----x--
A:-2----2---------x--
E:------4---------2--


"...Tomorrow go back to being friends"

E:------------
B:---3-----3--
G:---x-----2--
D:---4-----x--
A:---2-----x--
E:-3-3-----2--
   2         


"Say Goodbye..."

E:------------------
B:---3-----3-----0-- <---3on2
G:---x-----2-----2--
D:---4-----x-----2-- <---2on2
A:---2-----x--------
E:-3-3-----2--------
   2