Studio Version:

Most Helpful Video:

Album: Crash

 

Say Goodbye - Tim's Fills













Tuning: Standard

E-A-D-G-B-E


Difficulty: Tim n/a



Additional Tabs:


Helpful Videos:

> Dave and Tim '10

These are all tabs for the verse only

-------------------------|---------------------------------

---------------------2---|---------------------------------
---------------------2---|----------------------4----------
---2--2------2--2--------|--------2---------2--------------
-0--------0--------------|-----2---------2-----------------
-------------------------|--0---------0--------------------


--------------------------- |------------------------------------
--------------------------- |------------------------------------
---------7---7-----x---7----|------------------------------------
---------4---4-----x---4----|--------7--7--x7--7-----------------
----5-----------------------|-------------------------/9---------
--------------------------- |---/5-------------------------------

^

(that part x2)

Rhy. Fill 1

---5--5--0--5----------5--|-------------------------------
-----------------------5--|-----5---5--5------------------
-----------------------6--|-----4---4--4------------------
------------------7-------|-----6---6--6------------------
---------------7----------|-----7---7--7------------------
--------------------------|--0-----------------------------

--------5----5----------------------------------------------
--------5----5----------------------------------------------
--------x----x------------------------2h4-------------------
--0-----4----4------0h2-----------2-------------------------
-------------------------0----4-----------------------------



-------------------------|------------------------------------
-------------------------|-------------------------5----------
-----6-----6-----6-------|-------------2----------------------
-----7-----7-----7-------|---------6--------------------------
-------------------------|------------------------------------
-------------------------|------------------------------------


---------------------------------|--------------------5----------
-----------------7h8---7---------|------------5-------5----------
--------------7-------------7--- |------------6------------------
---------7-----------------------|--------7----------------------
----5----------------------------|---7---------------------------
-------------------------------- |-------------------------------

---------------------------------------------------------------
---------------------------------------------------------------
--------------------6---6-------9------------------------------
-------7----x-7-----------------9------------------------------
--------------------------------11-----------------------------
---5-----------------------------------------------------------

--------------------|------------------------------------------
--------------------|------------------------------------------
---------------7----|-------6-----6---6---6--------------------
-------7-------7----|-------x-----x---x---x--------------------
---5-------5---7----|-------4-----4---4---4--------------------
--------------------|--/5---------5-------5--------------------

-----------------------|---------------------------------------
-----------------------|---------------------------------------
-------6---6-6-6---6---|------------9-----7--------------------
-----------------------|------------9--------------6-----------
-----------------------|---7---5----7---------5----------------
---5-------------------|---------------------------------------

-----------------------|--------------------------------------
-----------------------|--------------------------------------
------------7----------|-------6----6---6---6-----------------
------------7----------|-------x----x---x---x-----------------
---5/9--9---------9\---|-------4----4---4---4-----------------
-----------------------|--/5--------5-------5-----------------

---5--------------------|--------------------------------------
---5--------------------|--5-------5-------5-----5-------------
---6----------6---------|--6-------7-------7-----7-------------
-----------7------7---7-|----------6-------6-----6-------------
--------7---------------|---------------7----------------------
------------------------|------0-------------------------------

---------------------------|---------------------------------
-------7-------7------7----|---------------------------------
-------7-------7------7----|------6-------6-----6------------
-------7-------7------7----|---------------------------------
---5--------5--------------|------4-------4-----4------------
---------------------------|--5-------5----------------------