Studio Version:

Most Useful Video:

Album: Some Devil

 

Save Me













Tuning: Standard

E-A-D-G-B-E


Difficulty: ***

Advanced


Additional Tabs:



Useful Videos:

Intro/Fill

E:-------------    E:-------------
B:-------------    B:-------------
G:---4---------    G:---4---5--4--
D:---5---3--5-- or D:---5---3--5--
A:---5---------    A:---5---5--5--
E:-3-3---------    E:-3-3---3--3--
   1     1  4         1


Solo Intro/Fill

Played at Farm Aid '04

E:----------------------------------
B:----------------------------------
G:-----------------3-4--------------
D:-----5-3-5---3-5-----5-3-5---3-5--
A:---5-------5---------------5------
E:-3--------------------------------
   1 4 4 1 4 4 1 4 1 2 4 1 4 4 1 4

Verse

The main singing part is the first part, then for the "Save Me"-type part it's the second

E:----      E:-----0--
B:----      B:-----1--
G:-4--      G:-2---0--
D:-5-- then D:-3---2--
A:-5--      A:-3---3--
E:-3--      E:-1------


"Stranger if you please..."

Chords in parenthesis are played very lightly as a filler occasionaly, if at all

E:----------(3)-----0-----0-- <---4on3
B:----------(0)-----1-----1--
G:----------(0)-----2-----0--
D:----------(0)-----2-----2--
A:----------(2)-----0-----3-- <---2on2
E:-3--2--0-------------------
   3  2


Breakdown

Don't play last chord last time around

E:------------------------
B:------------------------
G:---7-----7-----7-----7--
D:---4-----4-----5-----5--
A:---x-----x-----3-----5--
E:-7-7---5-5---5-5---3-3--
   3     2     2     1


"Save Me..." after Breakdown

This is played after the Breakdown for the rest of the song

E:-3---------0--
B:-0---------1--
G:-0----2----0--
D:-0----3----2--
A:-2----3----3--
E:-3----1-------