Studio Version:

Most Useful Video:

Album: UTTAD

 

Satellite













Tuning: Standard

E-A-D-G-B-E


Difficulty: ****

Pro


Additional Tabs:



Useful Videos:

> Dave Solo '10

Intro/Verse
​E:------------------------------------------------
B:------------------------------------------------
G:------------------------------------------------
D:---------8-------6-------5---------------6------
A:-----6-------4-------------------8---4----------
E:-4-------------------8-------6---------------8--
   1   2   4   1   2   4   1   2   4   1   2   4

Before Dave goes to the chourus around
E:----
B:----
D:-x--
A:-x--
E:-4--
   1
"Winter's cold..."
*See finger chart for this section
E:--------------------------
B:--------------------------
G:----6/8---8--8----8----8--
D:----6/8---6--6----6----6--
A:-------------4----x----6--
E:-4----------------6-------

Transition
E:------------------------------------------------
B:------------------------------------------------
G:------------------------------------------------
D:---------8-------6-------5----------------------
A:-----6-------4-----------------------4---6---8--
E:-4-------------------8-------6---8--------------
   1   2   4   1   2   4   1   2   4   1   2   4

"Rest high above..."
First and last chord are hit once and the rest are strummed last time around, the last chord isn't played
E:----4----3------------
B:----4----4------------
G:-8--5----5----6----6--
D:-8--6----5----6----6--
A:-6--6----3----4----4--
E:-6--4-----------------