Studio Version:

Most Useful Video:

Album: UTTAD

 

Satellite - Tim's Fills













Tuning: Standard

E-A-D-G-B-E


Difficulty: Tim n/a



Additional Tabs:



Useful Videos:

> Dave Solo '10

Intro/Verse/Outro

Several ways to do this. I have never heard Satellite played the same way twice. All parts are fingerpicked.

E:--------------------------
B:--------------------------
G:--------------------------
D:------8---6---5-------6---
A:----6---4---------8-4-----
E:--4---------8---6-------8-

or

E:----4-6p4---4-8p4---4-6
B:--4-------4-------4----
G:-----------------------
D:-----------------------
A:-----------------------
E:-----------------------

or

E:-6-4-3-1-3--
B:-4-6-4-2-4--
G:---6-5-3-5--
D:-6----------
A:------------
E:------------

or

E:------------------------------------
B:------------------------------------
G:-------15----13----12---10----13----
D:----13----11----10----8----11----10-
A:-11---------------------------------
E:------------------------------------


Chorus (First)"Winter's cold

"E:------------------------
B:------------------------
G:---6/8-8-88---88---88---
D:---6/8-8-6-6--6-6--8-8--
A:---------4--4------6--6-
E:-4------------6--6------

or

E:-88--8-44------------
B:-9--9--6-6--66-9--9--
G:---8-----------------
D:11-----6--6-66--66-8-
A:------------66-------
E:---------------6--6--


Chorus (Second)

"Rest high above..."

E:-13--8--9-11-
B:-13--8--9-11-
G:-13--8-10-12-
D:-13-10-11-13-
A:-11-10-11-13-
E:-11--8--9-11-

or (Storytellers)

E:-8--3-6-8---
B:-9--4-6-8---
G:-8--5-6-8---
D:-10-5-6-8---
A:----3-4-6---
E:----3-4-6---