Tuning: Standard

E-A-D-G-B-E


Difficulty:Advanced



Additional Tabs:



Helpful Videos:













Most Helpful Video:

Samurai Cop

Dave plays this on an electric guitar.


​Intro/Fill

e|-------------

B|----5--4--0-- 

G|----4--4--4-- 

D|----x--x--x-- 

A|-2~-2--2--2-- 

E|------------- 

   1             

Verse

e|------------------------------------------

B|-----5-4-0-----5-4-0-----5-4-0-----5-4-0--

G|-----4-4-4-----4-4-4-----4-4-4-----4-4-4--

D|-----x-x-x-----x-x-x-----x-x-x-----x-x-x-- x2

A|-----2-2-2--2~-2-2-2-----2-2-2-----2-2-2--

E|--4~------------------0~--------0~--------

    2         1

e|--------------------------------------------------------------

B|-----5-4-0-----5-4-0-----5-4-0-----5-4-0-----5-4-0-----5-4-0--

G|-----4-4-4-----4-4-4-----4-4-4-----4-4-4-----4-4-4-----4-4-4--

D|-----x-x-x-----x-x-x-----x-x-x-----x-x-x-----x-x-x-----x-x-x-- > To intro/fill

A|-----2-2-2-----x-x-x--2~-2-2-2-----2-2-2-----2-2-2-----x-x-x--

E|--0~--------2~------------------0~--------0~--------2~--------

              1         1                             1

Chorus

e|--------------------    ----------

B|--------------------    ----------

G|--x---------4----x--    --x-------

D|--2----4----4----2-- x3 --2----4-- > To intro/fill

A|--2----4----2----2--    --2----4--

E|--0----2---------0--    --0----2--


Bridge

e|----------    -----

B|----------    -----

G|--9-------    -----

D|--9----7-- x3 --4-- 

A|--7----7--    --4--

E|-------5--    --2--


Ending 

e|---------------

B|---------------

G|--x---------4--

D|--2----4----4--

A|--2----4----2--

E|--0----2-------