The intro part goes a little something like this...

e-------------------------------------------------------------------------
b-------------------------------------------------------------------------
g-------------------------------------------------------------------------
d--------------4--2----2--4/6~~-------------4--2----2--4/6--4/2h4p2-------
a-----------2--------4----------------------2-------4---------------------
e--0~~~-0-------------------------0~~~-0----------------------------------


e--x---x---x-------------x--
b--x---x---x-------------x--
g--9--13---9-------------9--
d--9--11---9-------------9--
a--7--12---7---------7---7--
e--0---x---0---7--9------x--


e-------------------x----------
b-------------------x----------
d-------------------9----------
g-------------------9----------
a----------7h9p----7----------
e--7--9------------0-----------


e--x---x---x----x--
b--x---x---x----x--
g--x---x---x----9--
d--7---5---4----9--
a--x---x---x----7--
e--5---3---2----0--

Tuning: Standard

E-A-D-G-B-E


Difficulty: ***

Advanced


Additional Tabs:



Helpful Videos:













Rye Whiskey

 

Originally by: Tex Ritter

Most Helpful Video: