Most Helpful Video:

Originally by: Tom Petty

 

Runnin' Down a Dream













Tuning: Standard

E-A-D-G-B-E


Difficulty: *

Beginner


Additional Tabs:



Helpful Videos:

Tim's intro and played throughout song:
E|----------------------
B|----------------------
G|----------------------
D|----------------------
A|----------------------
E|--0-7-0-6-0-5-0-3-0---


Dave's Parts
Intro:
E|-------
B|---0---
G|---1---
D|---2---
A|---2---
E|---0---


Verse:
E|-------------------
B|---0-----2----0----
G|---1-----2----1----
D|---2-----2----2----
A|---2-----0----2----
E|---0----------0----


Chorus:
E|--3--3-----------3--------3--3-----------3-----------3------
B|--2--0--0-----0--0--2-----2--0--0-----0--0--2-----2--0--0---
G|--3--0--1-----1--0--2-----3--0--1-----1--0--2-----2--0--1---
D|--0--0--2-----2--0--2-----0--0--2-----2--0--2-----2--0--2---
A|-----2--2-----2--2--0--------2--2-----2--2--0-----0--2--2---
E|-----3--0-----0--3--------*--3--0-----0--3-----------3--0---
                            
*Sometimes replaces this D-chord with an A-chord


Bridge/Outro:
E|------3--------
B|--1---2---0----
G|--0---3---1----
D|--2---0---2----
A|--3-------2----
E|----------0----