Studio Version:

Most Helpful Video:

Album: Away From the World

 

Rooftop













Tuning: Standard

E-A-D-G-B-E


Difficulty: ***

Advanced


Additional Tabs:



Helpful Videos:

Intro/Verse:

E|-----------------------------------------------------------------------
B|-----------------------------------------------------------------------
G|-------9---9-(9)-------------------------7---7-(7)-----7-6-------------
D|-----6---7----9---------9---9-(9)------4---5----7----------7-----------
A|--/7------------------6---7----9----/5-----------------------7-5-4-----
E|-------------------/7--------------------------------5-------------5---

Chorus:

E|--------------------2----------------
B|-----2-0-2----2--2--3---3---3---3----
G|-----2-0-2----2--2--2---2---2---2----
D|-----2-0-2----2--2------0---0---0----
A|--3p0------3p0---3------X---X---X----
E|------------------------3p0-3p0-3p0--

Bridge (Album/Early live versions):

E|------------
B|------------
G|-------4-2--
D|-3-5-7-5-3-- x2 then second 
A|-3-5-7-5-3-- part of bridge below
E|-1-3-5-3-1--

E|--3--------3--------3--------3--------
B|--0--1--1--0--1--1--0--1--1--0--1-----
G|--0--2--0--0--2--0--0--2--0--0--2--2--
D|--0--2--2--0--2--2--0--2--2--0--2--3-- x2
A|--2--0--3--2--0--3--2--0--3--2--0--3--
E|--3--------3--------3--------3-----1--


Bridge (Live):


Strum a quick E-chord a bunch of times, then end with A-chord and repeat

     E    A

E|--------------

B|---0----2-----

G|---1----2-----

D|---2----2----- 

A|---2----0----- 

E|---0----------


Bridge Breakdown:


E|---------------------------

B|---------------------------

G|---------------------------

D|--------------------------- Back into verse riff

A|--5--4--2--0------2-------- for Rashawn trumpet solo

E|--------------3h5---3--0---