Studio Version:

Most Useful Video:

Album: Remember Two Things

 

Recently













Tuning: Standard

E-A-D-G-B-E


Difficulty: ***

Advanced


Additional Tabs:



Useful Videos:

> DMB '13


Common Segue:

> Water Into Wine

Intro
E:---------------------------------------------------
B:---------------------------------------------------
G:-10---9---7---6---5---4----------------4-----------
D:-7----7---4---4---2---2-------7--0--2--------4--5--
A:-x----x---x---x---x---x---/5--------------2--------
E:-10---8---7---5---5---3----------------------------
                           (1)  4     1  4  1  4  4

Verse
When played acoustic, he sometimes combines the last two notes to strum the last three together, listen to a D&T to hear it
E:-------------------------
B:-------------------------
G:----4--------5-----------
D:-------0--3--------5--5--
A:----------------3--------
E:-3-----------------------
   2  4     1  4  1  4  4

Transition to Verse
​E:---------------------------------------
B:---------------------------------------
G:----4--------5--3---------------------- <---3
D:-------0--3--5--3--3--5---------------- <---2on-1st-5(3on-2nd-5)
A:-------------------3--5---/8-----5----- <---2
E:-3----------------------------8-----3--
   2  4     1     1  1     (3)  2  3  2

*Middle chords sometimes played like this
E:-------------
B:-------------
G:-5--3--2--0-- <---3(1on2)
D:-5--3--3--0-- <---2
A:-------------
E:-------------

"People stare..."(Slow)
E:---------------------------------
B:---------------------------------
G:---------------------------------
D:-------------0----------------0--
A:-----0---3-----------/8----------
E:-3---------------3--------8------
   2       2       2  (3)   2    

"People stare..."(Fast)
​E:------------------------------------------
B:------------------------------------------
G:-7---6---5---4----------------4--------0--
D:-4---4---2---2-------7--0--2--------4-----
A:-x---x---x---x---/5--------------2--------
E:-7---5---5---3----------------------------
                  (1)  4     1  4  1  4 

For the jam Dave usually plays either the verse or the 1st