Studio Version:

Most Helpful Video:

Album: Busted Stuff

 

Raven













Tuning: Standard

E-A-D-G-B-E

Comment: Dave usually plays using 12-string guitar


Difficulty: ***

Advanced


Additional Tabs:



Helpful Videos:

> Dave Solo '02

Intro/Fill

E:------------------------------------------------
B:------------------------------------------------
G:-------------------7----------------------------
D:--------12------5-------------------------------
A:----10------------------------------------------
E:-8-----------7---------8--10--8--7--8--7--5--3--
   1  2   4    3  1  4   1  3   1  1  2  1  1  1


Dave Solo Intro

Intro played at Benoyara Hall

E:---------------------
B:---1------1----------
G:---0------0----------
D:---2------x----------
A:-3-3----2-2----3--2--
E:---------------------
   3      2      3  2


Verse

E:-------------3----------------------
B:----12-------3---------10-------12--
G:----11-------0---------9--------11--
D:----9--------0----/7---7--------9---
A:-11-11-------2-------0-0-----11-11--
E:-----------3-3----------------------
   2         2     (1)         2


Breakdown

E:---------------------------

B:--------------------------
G:---2-------2-------9----9---
D:------------------------x--
A:---x-------x-------x-------
E:-1-1-----3-3-----8-8--7-7--
   1       2       2    1


Chorus

E:---------------------------------         E:------
B:---------------------------------         B:------
G:-10----9-----7-----9----7-----2--         G:---2--
D:-7-----7-----5-----5----5-----3-- ends on D:------
A:-x-----x-----x-----x----x-----3--         A:---x--
E:-10----8-----7-----8----7-----1--         E:-3-3--
                                               2