Studio Version:

Most Helpful Video:

Album: BTCS

 

Rapunzel













Tuning: Standard

E-A-D-G-B-E


Difficulty: ***

Advanced


Additional Tabs:


Helpful Videos:

> DMB '09

Intro/Fill

E:------------------------------------
B:------------------------------------
G:--------------------------9------7--
D:----7--------------5---7-----5---5--
A:-5--5--5--5--5--8-------------------
E:------------------------------------


End of Intro & Fill

When ending section, play "End of..." starting after the last 5 on A string

E:------------------------------------
B:------------------------------------
G:--------------------------9------7--
D:----7-----------5--5---7-----5---5--
A:-5--5--5--5--5--3--2----------------
E:------------------------------------


End of Intro/End of Verse/End of Song

E:----------------------------
B:----------------------------
G:----------------------------
D:-5--5---5--5---5--5---5--5--
A:-3--2---3--2---3--2---3--2--
E:----------------------------


Verse

Hit with a single upstroke

End verse on 3rd chord and go to "End of Verse"

E:-------------------
B:-------------------
G:-------------------
D:-5----5----3----5--
A:-x----3----x----3--
E:-3---------1-------


"I'll think the world of you..."

E:----------------
B:----------------
G:-7----7-----7---
D:-x---------(5)--
A:-5----x-----x---
E:------6----/8---
            (3)


Jam

Jam can also be the Verse strummed hard

E:-10----3----8----3--
B:-8-----1----6----1--
G:-x-----x----x----x--
D:-9-----2----7----2--
A:-10----3----8----3--
E:--------------------


End of Jam

E:-3----3----1----3--
B:-0----1----1----1--
G:-0----x----2----x--
A:-0----2----3----2--
D:-2----3----3----3--
E:-3---------1-------