Studio Version:

Most Helpful Video:

Album: BTCS

 

Rapunzel - Tim's Parts













Tuning: Standard

E-A-D-G-B-E


Difficulty: Tim n/a



Additional Tabs:


Helpful Videos:

> DMB '09

Intro (Use lots of muting throughout):
e------------------------------|
b----6--6-8--x-x-x-x--13-12-10-|
g----5--5-7--x-x-x-x--14-12-10-|
d-/7-7--7-9--x-x-x-x-----------|
a------------------------------|
E------------------------------|
          Repeat x4

e--------------------------------|
b----6--5-3----x-x-x-x--13-12-10-|
g----5--5-3h4--x-x-x-x--14-12-10-|
d-/7-7---------x-x-x-x-----------|
a--------------------------------|
E--------------------------------|
            Repeat x3


e-------------|
b----6--5-3---|
g----5--5-3h4-|
d-/7-7--------|
a-------------|
E-------------|


"I do my best for you, I do..":

e-----------------------------|
b-5-3----5-3----5-3----5-3----|
g-5-3h4--5-3h4--5-3h4--5-3h4--|
d-----------------------------|
a-----------------------------|
E-----------------------------|


Verse (This is just a general idea. Have fun with it, use lots of vibrato and mix it up

by playing some parts more stacatto and holding others out longer):

e-----------------|-----------------|
b-----------------|-----------------|
g-----3---2---3---|-----3---2---3---|
d-5~--2---1---2---|-5~--2---1---2---|
a-----------------|-----------------|
E-----------------|-----------------|


e---------------------|-------------|
b---------------------|-------------|
g------15---14---15---|-----3---2---|
d-17~--14---13---14---|-5~--2---1---|
a---------------------|-------------|
E---------------------|-------------|


"For you I would crawl.." riff:

e-----------------|------------------------|
b-----------------|------------------------|
g----4-3--2--2-3--|-4----4-3--2----2--2-3--|
d-5--3-2--1--1-2--|-3----3-2--1----1--1-2--|
a-----------------|---5---------3----------|
E-----------------|------------------------|
                      .         .

e------------------|------------|
b-----3------------|--6~--5--4--|
g---4---4-3~-2--3--|--4~--3--2--|
d-5----------1--2--|--5~--------|
a------------------|------------|
E------------------|------------|


Bridge (Just play around with this general idea, using lots of muting and vibrato):

e-------------------|-------------------|-----------------|
b-x-x-10--10-10--10-|-x-x-10--10-11--10-|-x-x-10--10-8--8-|
g-x-x-10--10-10--10-|-x-x-10--10-12--10-|-x-x-10--10-9--9-|
d-------------------|-------------------|-----------------|
a-------------------|-------------------|-----------------|
E-------------------|-------------------|-----------------|



Outro (Just go crazy with any versions of these chords you want, in the G C F C pattern):

G chords:

e--------7--13---------15~-|
b-----6--6--15-------------|
g--4--4--7--16-----12~-----|
d--3--5---------5~---------|
a--x-----------------------|
E--3-----------------------|

C chords:

e--------6--12---------|
b-----5--8--11-----13~-|
g--3--3--9--12--5~-----|
d--2--5----------------|
a--3-------------------|
E----------------------|

F chords:

e--------5--11---------13~-|
b-----4--4--13-------------|
g--2--2--5--14-----10~-----|
d--1--3---------3~---------|
a--x-----------------------|
E--1-----------------------|