Studio Version:

Most Helpful Video:

Album: BTCS

 

Pig













Tuning: Standard

E-A-D-G-B-E


Difficulty: ***

Advanced


Additional Tabs:



Helpful Videos:

> DMB '13

Verse

E:----------
B:----------
G:----------
D:-9--9--9--
A:-7--x--x--
E:----5--7--


Chorus

E:----------
B:----------
G:-2-------- <---2
D:-2--2--4-- <---1
A:----x--4--
E:----4--2-- <---3


"Come sister..."

E:-3------------3-----------
B:-3--2---------3--2--------
G:-0--2--4------0--2-----4--
D:-0--2--4--4---0--2--4--4--
A:-2-----2--4---2-----4--2--
E:-3--------2---3-----2-----


"Love, Love, Love...."

E:----------------
B:----------------
G:-4---4---4---3-- <---4
D:-2---2---x---x-- <---1
A:-x---x---x---x--
E:-4---3---2---2-- <---3on4&3(2on3, 1on2)