Pay for What You Get

Tuning: Standard

E-A-D-G-B-E


Difficulty: ***

Advanced


Additional Tabs:



Helpful Videos:

> DMB '03

Studio Version:

Most Helpful Video:

Album: UTTAD













Intro

E:-9\10--8------------------------9\10--8------------------------ <--4on9&10(1on8)
B:-9\10--8------------------------9\10--8------------------------ <--3(1on8)
G:-9\10--9----7---7--------5---5--9\10--9----5---5---5----7---7-- <--2
D:------------7---7---8----5---5-------------5---5---5----7---7--
A:------------5---5---8----3---3-------------3---3---3----5---5--
E:--------------------6------------------------------------------


Verse

When leading into verse from intro play first chord accordingly

E:------------------------
B:-----5------------------
G:-7---5---5--------------
D:-7---3---5---7---8---7--
A:-5-------3---7---8---7--
E:-------------5---6---5--


"...Everybody asks me..."

E:---------------------------------
B:---------------------------------
G:-5---5---5---5-----------3---3---
D:-5---5---5---5---3---3---3---3---
A:-3---3---3---3---3---3---1---1---
E:-----------------1---1-----------


Transition

play up to second to last chord then go to this(listen to hear)

E:-----------------
B:-----------------
G:-3---------------
D:-3---7---8---7---
A:-1---7---8---7---
E:-----5---6---5---