"Take all that we can..."
​​E:-------------------------------------------------------------------------------------------
B:---------------------------------------8---6-----------------------8---6------------------- <---4
G:-8---7--8---10--12\5-7--8\10-8--5------x---x--------5/7--7--5------x---x--------5/7--7--5-- <---2(4on8/10)
D:-10--8--10--12--13\6-8--x----x--6------x---x----3/5------8--6------x---x----3/5------8--6-- <---3
A:-x---x--x---x---x----x--x----x--x--3/6---5----3----------x--x--3/6---5----3----------x--x-- <---1
E:-8---6--8---10--11\4-6--8\10-8--4------------------------6--4------------------------6--4-- <---1(3on8/10)

                                     (1) 4 1 4  1 (1) (2)        (1) 4 1 4  1 (1) (2)

Studio Version:

Most Useful Video:

Album: Remember Two Things

 

One Sweet World













Tuning: Standard

E-A-D-G-B-E


Difficulty: ***

Advanced


Additional Tabs:


Useful Videos:

> Dave and Tim '10

Intro
End Intro on by sliding 4/6 on the A string
​E:-------------------------------------------------------
B:---4-----6------------4--------------------------------
G:------------3-----------0h1p0-----3-0------------------
D:-----5-----------5--------------3---------3-----3---0--
A:-6-----5------5-----3---------1---------1---1-0---0----
E:--------------------------------------4----------------
   3 1 2 2 4  1 2  3  2 4  (1)  1 3 4   4 1 3 1   3 


E:--------------------------------------------------
B:-----1-------0-1----------------------------------
G:-------0---2-------3------------------------------
D:---2-----------------0-0-----3-0-----3-1-----1/3--
A:-3-------2-------1---------3-------3-----1-3------
E:-------------------------1-------4----------------
   3 2 1   2 3   2 1 3     1 3 4   4 2 3 1 1 3 (1)

"One Sweet World..."
E:--------------------------------
B:--------------------------------
G:-8---7--5------------5/7--7--5--
D:-10--8--6--------3/5------8--6--
A:-x---x--x----5p3----------x--x--
E:-8---6--4--4--------------6--4--
             2 3_1 (1) (2) 


Alternate Opening Chord "One Sweet Word..."

This is for the first chord....which gives it a fuller sound

E:----
B:-4--
G:-5--
D:-x--
A:-3--
E:----


Verse
E:--------------------------
B:--------------------------
G:-----7----8/10-10--x-x-x-- <---finger 4
D:---8------8/10-10--x-x-x-- <---finger 3
A:-6-----------------x-x-x--
E:-------6-----------x-x-x--
   1 3 2 1

Chorus
E:----------------------------------------
B:----------------------------------------
G:-------5/7--7--5--7----------5/7--7--5--
D:---3/5------8--6--8------3/5------8--6--
A:-3----------x--x--x----3----------x--x--
E:------------6--4--6---------------6--4--
   1 (1) (2)             1 (1) (2) 









Ending\Swim Naked Outro
Repeat till you feel you want to end
​E:---------
B:---------
G:-8----7--
D:-8----8--
A:-6----x--
E:------6--