Most Helpful Video:













Verse
e------------------------- ------------
B------------------------- ------------
G------------------------- -7----6-----
D--5----2---/----9--7--5-- -7----7-----
A--x----2---/---10--9--7-- -x----x-----
E--3----0----------------- -5----5-----


Chorus
e-----------------
B-----------------
G--8----9--11-----
D--0----0---0-----
A--x----x---x-----
E--7----8--10-----

Tuning: Standard

E-A-D-G-B-E

Comment: Credit to Ranting Thespian


Difficulty: ***

Advanced


Additional Tabs:



Helpful Videos:

Once on a Wild Afternoon