Tuning: Raised-B

B-E-A-D-F#-B


Difficulty: ***

Advanced


Additional Tabs:


Helpful Videos:


Intro/Verse

B:------------------------------------------------------------
F#:---------2------------3-------------0----------------------
D:----------2------------0-------------0------0h2p0-----------
A:-----(2)------------4-------------0----------------2-----0--
E:--0------------4/5----------5-------------------------2-----
B:-------------------------------3---------3------------------
        1   1    (3)  2  1    3  3         3   (1)   1  1


Chorus

B:----------------------------
F#:-3--3-----------3--3----2--
D:--2--2----4------2--2----2--
A:--0--0----4------0--0----2--
E:----------2--------------0--
B:----------------------------


Breakdown

B:------------
F#:-0------0--
D:--0------0--
A:--0------2--
E:--2------2--
B:--3------0--


Outro

B:-------------------------------
F#:---------2------------3-------
D:----------2------------0-------
A:-----(2)------------4----------
E:--0------------4/5----------5--
B:-------------------------------
       1   1    (3)  2  1    3  

 

B:------------------------------------------------------------------
F#:--------3-----------3-------------------3-----------3------------
D:---------0-----------0-------------------0-----------0------------
A:-----4-----------4-----------4-------4-----------4-----------4----
E:--3-----------3-----------3-------2-----------2-----------2-------
B:------------------------------------------------------------------
   1  3   2    1  3   2    1  3    1  3   2    1  3   2    1  3

 

B:----------------------------------0--
F#:--------3-----------3------------3--
D:---------0-----------0------------2--
A:-----4-----------4-----------4----0--
E:--0-----------0-----------0----------
B:-------------------------------------
      3   2       3   2       3

Studio Version:

Album: Some Devil

 

Oh