Studio Version:

Album: Everyday

 

Mother Father













Tuning: Standard

E-A-D-G-B-E


Difficulty: ***

Advanced


Additional Tabs:



Helpful Videos:


Intro

E:-----------------------------------
B:-8--7-8-8h10-8-7h8-7---7--7/8-7----
G:-9---------------------7--------9--
D:-9---------------------7-----------
A:-7---------------------5-----------
E:-----------------------------------
      1 2  2_4 2 1_2 1      (1) 1 3


E:----7-7----------------------
B:-5------10-8-8h10-7---5---4--
G:-5--------------------4---4--
D:-5--------------------x---x--
A:-3--------------------2---2--
E:-----------------------------
      1 1 4  2  2_4 1


Verse

Last Chord could be played as the last two chords of intro

E:----------------------
B:-8-----7-----5-----4--
G:-9-----7-----5-----4--
D:-9-----7-----5-----4--
A:-7-----5-----3-----2--
E:----------------------


Fill(Yelling)/Ending

E:-2/3--0------0------0------
B:--------0h3----0h3----0h3--
G:---------------------------
D:---------------------------
A:---------------------------
E:---------------------------
   (1)    0_2    0_2   0_2


"Mother Father please explain..."

E:------0-----------------
B:-1----0----1------------
G:-2----0----2---------4--
D:-2----2----2----4----4--
A:-0----2----0----4----2--
E:------0---------2-------