Most Helpful Video:

Originally by: Pink Floyd

 

Money













Tuning: Standard

E-A-D-G-B-E


Difficulty: ***

Advanced


Additional Tabs:



Helpful Videos:

Riff A

e---------------------|
B---------------------|
G---4-----------------|
D-----4---------------|
A-2-----2------2---5--|
E---------2--5--------|


Riff B

e-------------------|
B-------------------|
G-------------------|
D--4---4-3-2----2-0-|
A-------------------|
E-------------------|


Riff C

e---------------------|
B---------------------|
G--4-2----------------|
D------5-4-2----------|
A-------------5-4-3-2-|
E---------------------|


Solo (B minor pentatonic)

e--------------------------------7--10--7--7-7---12b(14)--10--7----|
B-----------10b(12)-7-10-------------------------------------------|
G--9b(11)-7---------------9b(11)-----------------------------------|
D------------------------------------------------------------------|
A------------------------------------------------------------------|
E------------------------------------------------------------------|



Intro Riff A
    
Riff A
Money, get away
Get a good job with good pay and you're okay
Money, it's a gas
Grab that cash with both hands and make a stash


Riff B
New car, caviar, four star daydream,
Think I'll buy me a football team


Riff A
Money, get back
I'm all right Jack keep your hands off of my stack
Money, it's a hit
Don't give me that do goody good bullshit


Riff B
I'm in the high-fidelity first class traveling set
And I think I need a Lear jet


Riff C (sax solo under Riff A) then quick B chord strum and start solo


Riff A
Money, it's a crime
Share it fairly but don't take a slice of my pie
Money, so they say
Is the root of all evil today
But if you ask for a raise it's no surprise
That they're giving none away.