Studio Version:

Most Useful Video:

Album: Remember Two Things

 

Minarets













Tuning: Standard

E-A-D-G-B-E


Difficulty: ***

Advanced


Additional Tabs:



Useful Videos:

 > DMB '03

Intro

Put Finger 1 over 7th fret and mute w/ all fingers

E:-x--
B:-x--
G:-x--
D:-x--
A:-x--
E:-x--


Verse Part #1

He ends every section he plays #1 w/ the 2nd Part

On Slides use finger 1 for 6 and finger 2 for 7

E:---------------------                   E:-------------------
B:---------------------                   B:-------------------
G:---------------------                   G:-------------------
D:-9--7--6------------- <---1on6          D:-9--7--6--6/7---6-- <---1on6
A:-7--7--7--7/---8--7-- <---2on7          A:-7--7--7--7/8---7-- <---2on7
E:-0--0--0-------x--x--                   E:-0--0--0-----------
      1     2    1  1                           1


Verse Part #2

On Slides use finger 1 for 1 and finger 2 for 2

E:----------------------------------------
B:----------------------------------------
G:-4--4--1--------------4--4--1--1/2---1--  <---1on1
D:-2--2--2--2/---3--2---2--2--2--2/3---2--  <---2on2
A:-0--0--0-------x--x---0--0--0-----------
E:----------------------------------------
      1     2    1  1      1  


Chorus

E:---------------------------------------------------------------
B:---------------------------------------------------------------
G:---------------------------------------------------------------
D:---------11---9---7---6---5---4---------------6h7p6------------
A:-----9--------------------------------7---8-----------7--8--7--
E:-7--------------------------------5----------------------------
   1   2   4    2   1   1   1   1   1   2   3   1_2_1   2  3  2


Alternate End of Chorus

When they play the chorus 3x, Leroi played this the 3rd time although Dave doesn't

E:------------------------------------------------------------------
B:-----------------------------------------------9h10p9-------------
G:--------------------------------------9---10------------9--10--9--
D:---------11---9---7---6---5---4---7-------------------------------
A:-----9------------------------------------------------------------
E:-7----------------------------------------------------------------
   1   2   4    2   1   1   1   1   1   2   3     1_2_1   1  2  1