Studio Version:

Most Helpful Video:

Album: Away From the World

 

Mercy













Tuning: Low E raised to F

(E tuned up a half-step to F) F-A-D-G-B-E


Difficulty: ***

Advanced


Additional Tabs:



Helpful Videos:

Dave sometimes plays the root note in synchrony with the high B and E. Mix it up for the best sound

Intro

E:-3--3--3--- 
B:-1--1--1---
G:-----------
D:-----------
A:-----------
F:-----------

Verse 

E:----3-----3--3-----3--3--3--3---- 
B:----1-----1--1-----1--1--1--1----
G:---------------------------------  Repeat 3 times
D:---------------------------------
A:-3-----0-------------------------
F:----------------0----------------

"Come on Back..." 

E:----3--3--3-----3--3--3--3---- 
B:----1--1--1-----1--1--1--1----
G:------------------------------ 
D:-0-----------3----------------
A:------------------------------
F:------------------------------


Chorus: 

"Mercy will you overcome this" 

E:----3-----3--3-----3--3--3--3--- 
B:----1-----1--1-----1--1--1--1---
G:-0------------------------------  Repeat 3 times
D:-------2--------3---------------
A:--------------------------------
F:--------------------------------

E:---3-----3--3-- 
B:---1-----1--1--
G:--------------- 
D:-0----3--------
A:---------------
F:---------------


Ending: 

E:---3----3----3----3--3--3--3----3------ 
B:---1----1----1----1--1--1--1----1------
G:--------------------------------------- 
D:----------------0----------------------
A:-0----------------------------3--------
F:------2----0---------------------------